ISO-10303-21;
HEADER;
FILE_DESCRIPTION (( 'STEP AP203' ),
    '1' );
FILE_NAME ('250814 STEP 3-400575-00_6809.STEP',
    '2025-08-14T10:37:31',
    ( '' ),
    ( '' ),
    'SwSTEP 2.0',
    'SolidWorks 2024',
    '' );
FILE_SCHEMA (( 'CONFIG_CONTROL_DESIGN' ));
ENDSEC;

DATA;
#1 = APPLICATION_PROTOCOL_DEFINITION ( 'international standard', 'config_control_design', 1994, #196 ) ;
#2 = VERTEX_POINT ( 'NONE', #260 ) ;
#3 =( LENGTH_UNIT ( ) NAMED_UNIT ( * ) SI_UNIT ( .MILLI., .METRE. ) );
#4 = COORDINATED_UNIVERSAL_TIME_OFFSET ( 2, 0, .AHEAD. ) ;
#5 = EDGE_LOOP ( 'NONE', ( #11 ) ) ;
#6 = CIRCLE ( 'NONE', #241, 12.00000000000000000 ) ;
#7 = DATE_AND_TIME ( #167, #38 ) ;
#8 = DIRECTION ( 'NONE',  ( 1.000000000000000000, 0.000000000000000000, 0.000000000000000000 ) ) ;
#9 = EDGE_CURVE ( 'NONE', #2, #2, #294, .T. ) ;
#10 = ORIENTED_EDGE ( 'NONE', *, *, #163, .T. ) ;
#11 = ORIENTED_EDGE ( 'NONE', *, *, #9, .F. ) ;
#12 = CIRCLE ( 'NONE', #56, 5.000000000000000000 ) ;
#13 = EDGE_LOOP ( 'NONE', ( #75 ) ) ;
#14 = DIRECTION ( 'NONE',  ( 1.000000000000000000, 0.000000000000000000, 0.000000000000000000 ) ) ;
#15 = ORIENTED_EDGE ( 'NONE', *, *, #104, .F. ) ;
#16 = DIRECTION ( 'NONE',  ( 0.000000000000000000, 0.000000000000000000, 1.000000000000000000 ) ) ;
#17 = AXIS2_PLACEMENT_3D ( 'NONE', #247, #216, #165 ) ;
#18 = CYLINDRICAL_SURFACE ( 'NONE', #327, 38.10000000000000142 ) ;
#19 = CC_DESIGN_DATE_AND_TIME_ASSIGNMENT ( #207, #117, ( #189 ) ) ;
#20 = DIRECTION ( 'NONE',  ( 0.000000000000000000, 0.000000000000000000, 1.000000000000000000 ) ) ;
#21 = FACE_OUTER_BOUND ( 'NONE', #324, .T. ) ;
#22 = COORDINATED_UNIVERSAL_TIME_OFFSET ( 2, 0, .AHEAD. ) ;
#23 = PERSON_AND_ORGANIZATION ( #69, #285 ) ;
#24 = VERTEX_POINT ( 'NONE', #235 ) ;
#25 =( NAMED_UNIT ( * ) SI_UNIT ( $, .STERADIAN. ) SOLID_ANGLE_UNIT ( ) );
#26 = AXIS2_PLACEMENT_3D ( 'NONE', #151, #102, #174 ) ;
#27 = LOCAL_TIME ( 13, 37, 31.00000000000000000, #4 ) ;
#28 = COORDINATED_UNIVERSAL_TIME_OFFSET ( 2, 0, .AHEAD. ) ;
#29 = DIRECTION ( 'NONE',  ( 0.000000000000000000, 0.000000000000000000, -1.000000000000000000 ) ) ;
#30 = APPROVAL_DATE_TIME ( #269, #36 ) ;
#31 = FACE_OUTER_BOUND ( 'NONE', #244, .T. ) ;
#32 = ADVANCED_FACE ( 'NONE', ( #188, #31 ), #120, .F. ) ;
#33 = SHAPE_DEFINITION_REPRESENTATION ( #137, #203 ) ;
#34 = CARTESIAN_POINT ( 'NONE',  ( 0.000000000000000000, 0.000000000000000000, 0.000000000000000000 ) ) ;
#35 = DIRECTION ( 'NONE',  ( -0.000000000000000000, -0.000000000000000000, 1.000000000000000000 ) ) ;
#36 = APPROVAL ( #316, 'UNSPECIFIED' ) ;
#37 = EDGE_LOOP ( 'NONE', ( #302 ) ) ;
#38 = LOCAL_TIME ( 13, 37, 31.00000000000000000, #66 ) ;
#39 = DIRECTION ( 'NONE',  ( -0.000000000000000000, -0.000000000000000000, 1.000000000000000000 ) ) ;
#40 = DIRECTION ( 'NONE',  ( 1.000000000000000000, 0.000000000000000000, 0.000000000000000000 ) ) ;
#41 = CARTESIAN_POINT ( 'NONE',  ( 0.000000000000000000, 0.000000000000000000, 4.849999999999997868 ) ) ;
#42 = ADVANCED_FACE ( 'NONE', ( #291, #140 ), #273, .F. ) ;
#43 = CIRCLE ( 'NONE', #236, 32.54999999999999716 ) ;
#44 = CARTESIAN_POINT ( 'NONE',  ( 0.000000000000000000, 0.000000000000000000, 6.349999999999999645 ) ) ;
#45 = CARTESIAN_POINT ( 'NONE',  ( 0.000000000000000000, 0.000000000000000000, 6.349999999999999645 ) ) ;
#46 = ADVANCED_FACE ( 'NONE', ( #168, #297 ), #240, .T. ) ;
#47 = CARTESIAN_POINT ( 'NONE',  ( 38.10000000000000142, 0.000000000000000000, -4.589934640057540705 ) ) ;
#48 = AXIS2_PLACEMENT_3D ( 'NONE', #299, #70, #301 ) ;
#49 = AXIS2_PLACEMENT_3D ( 'NONE', #60, #218, #191 ) ;
#50 = CC_DESIGN_APPROVAL ( #36, ( #64 ) ) ;
#51 = VERTEX_POINT ( 'NONE', #47 ) ;
#52 = DATE_AND_TIME ( #239, #300 ) ;
#53 = CARTESIAN_POINT ( 'NONE',  ( 32.54999999999999716, 0.000000000000000000, 1.385640646055101399 ) ) ;
#54 = EDGE_CURVE ( 'NONE', #135, #135, #179, .T. ) ;
#55 = CARTESIAN_POINT ( 'NONE',  ( 32.54999999999999716, 0.000000000000000000, -1.385640646055101399 ) ) ;
#56 = AXIS2_PLACEMENT_3D ( 'NONE', #306, #328, #153 ) ;
#57 = APPROVAL_ROLE ( '' ) ;
#58 = DIRECTION ( 'NONE',  ( 0.000000000000000000, 0.000000000000000000, 1.000000000000000000 ) ) ;
#59 = EDGE_CURVE ( 'NONE', #308, #308, #43, .T. ) ;
#60 = CARTESIAN_POINT ( 'NONE',  ( 0.000000000000000000, 0.000000000000000000, 6.349999999999999645 ) ) ;
#61 = DATE_TIME_ROLE ( 'classification_date' ) ;
#62 = AXIS2_PLACEMENT_3D ( 'NONE', #34, #318, #67 ) ;
#63 = DIRECTION ( 'NONE',  ( 1.000000000000000000, 0.000000000000000000, 0.000000000000000000 ) ) ;
#64 = PRODUCT_DEFINITION_FORMATION_WITH_SPECIFIED_SOURCE ( 'ANY', '', #183, .NOT_KNOWN. ) ;
#65 = DESIGN_CONTEXT ( 'detailed design', #213, 'design' ) ;
#66 = COORDINATED_UNIVERSAL_TIME_OFFSET ( 2, 0, .AHEAD. ) ;
#67 = DIRECTION ( 'NONE',  ( 1.000000000000000000, 0.000000000000000000, 0.000000000000000000 ) ) ;
#68 = APPROVAL_STATUS ( 'not_yet_approved' ) ;
#69 = PERSON ( 'UNSPECIFIED', 'UNSPECIFIED', 'UNSPECIFIED', ('UNSPECIFIED'), ('UNSPECIFIED'), ('UNSPECIFIED') ) ;
#70 = DIRECTION ( 'NONE',  ( -0.000000000000000000, -0.000000000000000000, 1.000000000000000000 ) ) ;
#71 = AXIS2_PLACEMENT_3D ( 'NONE', #103, #175, #74 ) ;
#72 = EDGE_LOOP ( 'NONE', ( #249 ) ) ;
#73 =( GEOMETRIC_REPRESENTATION_CONTEXT ( 3 ) GLOBAL_UNCERTAINTY_ASSIGNED_CONTEXT ( ( #250 ) ) GLOBAL_UNIT_ASSIGNED_CONTEXT ( ( #3, #133, #25 ) ) REPRESENTATION_CONTEXT ( 'NONE', 'WORKASPACE' ) );
#74 = DIRECTION ( 'NONE',  ( -1.000000000000000000, 0.000000000000000000, 0.000000000000000000 ) ) ;
#75 = ORIENTED_EDGE ( 'NONE', *, *, #309, .T. ) ;
#76 = CC_DESIGN_PERSON_AND_ORGANIZATION_ASSIGNMENT ( #113, #91, ( #210 ) ) ;
#77 = DIRECTION ( 'NONE',  ( 0.000000000000000000, -0.000000000000000000, 1.000000000000000000 ) ) ;
#78 = ORIENTED_EDGE ( 'NONE', *, *, #9, .T. ) ;
#79 = DIRECTION ( 'NONE',  ( -0.000000000000000000, -0.000000000000000000, 1.000000000000000000 ) ) ;
#80 = CARTESIAN_POINT ( 'NONE',  ( 0.000000000000000000, 0.000000000000000000, -4.589934640057540705 ) ) ;
#81 = CARTESIAN_POINT ( 'NONE',  ( 15.00000000000000000, 0.000000000000000000, 6.349999999999998757 ) ) ;
#82 = VERTEX_POINT ( 'NONE', #161 ) ;
#83 = CONICAL_SURFACE ( 'NONE', #71, 38.10000000000000142, 1.047197551196596077 ) ;
#84 = PERSON_AND_ORGANIZATION_ROLE ( 'design_owner' ) ;
#85 = DIRECTION ( 'NONE',  ( 1.000000000000000000, 0.000000000000000000, -0.000000000000000000 ) ) ;
#86 = APPROVAL ( #108, 'UNSPECIFIED' ) ;
#87 = VERTEX_POINT ( 'NONE', #81 ) ;
#88 = AXIS2_PLACEMENT_3D ( 'NONE', #45, #79, #14 ) ;
#89 = ORIENTED_EDGE ( 'NONE', *, *, #187, .T. ) ;
#90 = CARTESIAN_POINT ( 'NONE',  ( 0.000000000000000000, 23.52000575465030252, 6.350000000000000533 ) ) ;
#91 = PERSON_AND_ORGANIZATION_ROLE ( 'classification_officer' ) ;
#92 = AXIS2_PLACEMENT_3D ( 'NONE', #295, #35, #8 ) ;
#93 = CARTESIAN_POINT ( 'NONE',  ( 0.000000000000000000, 0.000000000000000000, -1.385640646055101399 ) ) ;
#94 = CC_DESIGN_APPROVAL ( #272, ( #210 ) ) ;
#95 = DATE_AND_TIME ( #190, #237 ) ;
#96 = EDGE_LOOP ( 'NONE', ( #171 ) ) ;
#97 = CARTESIAN_POINT ( 'NONE',  ( 0.000000000000000000, 0.000000000000000000, -4.150000000000002132 ) ) ;
#98 = ORIENTED_EDGE ( 'NONE', *, *, #309, .F. ) ;
#99 = PLANE ( 'NONE',  #185 ) ;
#100 = ORIENTED_EDGE ( 'NONE', *, *, #59, .F. ) ;
#101 = CARTESIAN_POINT ( 'NONE',  ( 0.000000000000000000, 0.000000000000000000, -6.349999999999999645 ) ) ;
#102 = DIRECTION ( 'NONE',  ( -0.000000000000000000, -0.000000000000000000, 1.000000000000000000 ) ) ;
#103 = CARTESIAN_POINT ( 'NONE',  ( 0.000000000000000000, 0.000000000000000000, -4.589934640057540705 ) ) ;
#104 = EDGE_CURVE ( 'NONE', #87, #87, #125, .T. ) ;
#105 = AXIS2_PLACEMENT_3D ( 'NONE', #156, #130, #257 ) ;
#106 = LOCAL_TIME ( 13, 37, 31.00000000000000000, #22 ) ;
#107 = FACE_OUTER_BOUND ( 'NONE', #119, .T. ) ;
#108 = APPROVAL_STATUS ( 'not_yet_approved' ) ;
#109 = CARTESIAN_POINT ( 'NONE',  ( 5.000000000000000000, 0.000000000000000000, -4.150000000000002132 ) ) ;
#110 = ADVANCED_FACE ( 'NONE', ( #193, #192 ), #284, .F. ) ;
#111 = CALENDAR_DATE ( 2025, 14, 8 ) ;
#112 = VERTEX_POINT ( 'NONE', #182 ) ;
#113 = PERSON_AND_ORGANIZATION ( #69, #285 ) ;
#114 = ORIENTED_EDGE ( 'NONE', *, *, #160, .T. ) ;
#115 = ORIENTED_EDGE ( 'NONE', *, *, #163, .F. ) ;
#116 = EDGE_LOOP ( 'NONE', ( #221 ) ) ;
#117 = DATE_TIME_ROLE ( 'creation_date' ) ;
#118 = CIRCLE ( 'NONE', #157, 38.10000000000000142 ) ;
#119 = EDGE_LOOP ( 'NONE', ( #227 ) ) ;
#120 = PLANE ( 'NONE',  #131 ) ;
#121 = EDGE_LOOP ( 'NONE', ( #10 ) ) ;
#122 = FACE_OUTER_BOUND ( 'NONE', #212, .T. ) ;
#123 = ADVANCED_FACE ( 'NONE', ( #271, #245 ), #317, .F. ) ;
#124 = DIRECTION ( 'NONE',  ( -0.000000000000000000, -0.000000000000000000, -1.000000000000000000 ) ) ;
#125 = CIRCLE ( 'NONE', #92, 15.00000000000000000 ) ;
#126 = ORIENTED_EDGE ( 'NONE', *, *, #104, .T. ) ;
#127 = DIRECTION ( 'NONE',  ( -0.000000000000000000, -0.000000000000000000, 1.000000000000000000 ) ) ;
#128 = CC_DESIGN_PERSON_AND_ORGANIZATION_ASSIGNMENT ( #23, #259, ( #189 ) ) ;
#129 = DIRECTION ( 'NONE',  ( 1.000000000000000000, 0.000000000000000000, 0.000000000000000000 ) ) ;
#130 = DIRECTION ( 'NONE',  ( -0.000000000000000000, -0.000000000000000000, 1.000000000000000000 ) ) ;
#131 = AXIS2_PLACEMENT_3D ( 'NONE', #90, #29, #145 ) ;
#132 = APPROVAL_PERSON_ORGANIZATION ( #138, #86, #238 ) ;
#133 =( NAMED_UNIT ( * ) PLANE_ANGLE_UNIT ( ) SI_UNIT ( $, .RADIAN. ) );
#134 = CC_DESIGN_PERSON_AND_ORGANIZATION_ASSIGNMENT ( #215, #266, ( #64 ) ) ;
#135 = VERTEX_POINT ( 'NONE', #53 ) ;
#136 = DIRECTION ( 'NONE',  ( 1.000000000000000000, 0.000000000000000000, 0.000000000000000000 ) ) ;
#137 = PRODUCT_DEFINITION_SHAPE ( 'NONE', 'NONE',  #189 ) ;
#138 = PERSON_AND_ORGANIZATION ( #69, #285 ) ;
#139 = COORDINATED_UNIVERSAL_TIME_OFFSET ( 2, 0, .AHEAD. ) ;
#140 = FACE_OUTER_BOUND ( 'NONE', #143, .T. ) ;
#141 = AXIS2_PLACEMENT_3D ( 'NONE', #148, #194, #181 ) ;
#142 = CARTESIAN_POINT ( 'NONE',  ( 0.000000000000000000, 0.000000000000000000, 1.385640646055101399 ) ) ;
#143 = EDGE_LOOP ( 'NONE', ( #78 ) ) ;
#144 = ADVANCED_FACE ( 'NONE', ( #304, #224 ), #325, .F. ) ;
#145 = DIRECTION ( 'NONE',  ( -1.000000000000000000, 0.000000000000000000, -0.000000000000000000 ) ) ;
#146 = PERSON_AND_ORGANIZATION ( #69, #285 ) ;
#147 = CIRCLE ( 'NONE', #26, 38.10000000000000142 ) ;
#148 = CARTESIAN_POINT ( 'NONE',  ( 0.000000000000000000, 0.000000000000000000, 6.349999999999999645 ) ) ;
#149 = EDGE_LOOP ( 'NONE', ( #200 ) ) ;
#150 = ADVANCED_FACE ( 'NONE', ( #152, #202 ), #83, .T. ) ;
#151 = CARTESIAN_POINT ( 'NONE',  ( 0.000000000000000000, 0.000000000000000000, 4.589934640057538040 ) ) ;
#152 = FACE_BOUND ( 'NONE', #176, .T. ) ;
#153 = DIRECTION ( 'NONE',  ( 1.000000000000000000, 0.000000000000000000, 0.000000000000000000 ) ) ;
#154 = CC_DESIGN_APPROVAL ( #86, ( #189 ) ) ;
#155 = CARTESIAN_POINT ( 'NONE',  ( 0.000000000000000000, 0.000000000000000000, 4.849999999999997868 ) ) ;
#156 = CARTESIAN_POINT ( 'NONE',  ( 0.000000000000000000, 0.000000000000000000, 6.349999999999999645 ) ) ;
#157 = AXIS2_PLACEMENT_3D ( 'NONE', #101, #201, #281 ) ;
#158 = APPROVAL_PERSON_ORGANIZATION ( #146, #36, #57 ) ;
#159 = VERTEX_POINT ( 'NONE', #184 ) ;
#160 = EDGE_CURVE ( 'NONE', #82, #82, #147, .T. ) ;
#161 = CARTESIAN_POINT ( 'NONE',  ( 38.10000000000000142, 0.000000000000000000, 4.589934640057538040 ) ) ;
#162 = CARTESIAN_POINT ( 'NONE',  ( 38.10000000000000142, 0.000000000000000000, -6.349999999999999645 ) ) ;
#163 = EDGE_CURVE ( 'NONE', #186, #186, #12, .T. ) ;
#164 = PERSON_AND_ORGANIZATION_ROLE ( 'creator' ) ;
#165 = DIRECTION ( 'NONE',  ( 1.000000000000000000, 0.000000000000000000, 0.000000000000000000 ) ) ;
#166 = ORIENTED_EDGE ( 'NONE', *, *, #54, .F. ) ;
#167 = CALENDAR_DATE ( 2025, 14, 8 ) ;
#168 = FACE_OUTER_BOUND ( 'NONE', #116, .T. ) ;
#169 = ORIENTED_EDGE ( 'NONE', *, *, #282, .T. ) ;
#170 = CALENDAR_DATE ( 2025, 14, 8 ) ;
#171 = ORIENTED_EDGE ( 'NONE', *, *, #180, .T. ) ;
#172 = ORIENTED_EDGE ( 'NONE', *, *, #282, .F. ) ;
#173 = ADVANCED_FACE ( 'NONE', ( #323, #255 ), #18, .T. ) ;
#174 = DIRECTION ( 'NONE',  ( 1.000000000000000000, 0.000000000000000000, 0.000000000000000000 ) ) ;
#175 = DIRECTION ( 'NONE',  ( 0.000000000000000000, 0.000000000000000000, -1.000000000000000000 ) ) ;
#176 = EDGE_LOOP ( 'NONE', ( #100 ) ) ;
#177 = DIRECTION ( 'NONE',  ( 1.000000000000000000, 0.000000000000000000, 0.000000000000000000 ) ) ;
#178 = DIRECTION ( 'NONE',  ( -0.000000000000000000, -0.000000000000000000, 1.000000000000000000 ) ) ;
#179 = CIRCLE ( 'NONE', #268, 32.54999999999999716 ) ;
#180 = EDGE_CURVE ( 'NONE', #329, #329, #118, .T. ) ;
#181 = DIRECTION ( 'NONE',  ( 1.000000000000000000, 0.000000000000000000, 0.000000000000000000 ) ) ;
#182 = CARTESIAN_POINT ( 'NONE',  ( 38.10000000000000142, 0.000000000000000000, 6.349999999999999645 ) ) ;
#183 = PRODUCT ( '250814 STEP 3-400575-00_6809', '250814 STEP 3-400575-00_6809', '', ( #234 ) ) ;
#184 = CARTESIAN_POINT ( 'NONE',  ( 15.00000000000000000, 0.000000000000000000, 4.849999999999997868 ) ) ;
#185 = AXIS2_PLACEMENT_3D ( 'NONE', #251, #16, #85 ) ;
#186 = VERTEX_POINT ( 'NONE', #109 ) ;
#187 = EDGE_CURVE ( 'NONE', #112, #112, #246, .T. ) ;
#188 = FACE_BOUND ( 'NONE', #322, .T. ) ;
#189 = PRODUCT_DEFINITION ( 'UNKNOWN', '', #64, #65 ) ;
#190 = CALENDAR_DATE ( 2025, 14, 8 ) ;
#191 = DIRECTION ( 'NONE',  ( 1.000000000000000000, 0.000000000000000000, 0.000000000000000000 ) ) ;
#192 = FACE_OUTER_BOUND ( 'NONE', #195, .T. ) ;
#193 = FACE_OUTER_BOUND ( 'NONE', #265, .T. ) ;
#194 = DIRECTION ( 'NONE',  ( -0.000000000000000000, -0.000000000000000000, 1.000000000000000000 ) ) ;
#195 = EDGE_LOOP ( 'NONE', ( #293 ) ) ;
#196 = APPLICATION_CONTEXT ( 'configuration controlled 3d designs of mechanical parts and assemblies' ) ;
#197 = DIRECTION ( 'NONE',  ( -1.000000000000000000, 0.000000000000000000, 0.000000000000000000 ) ) ;
#198 = ORIENTED_EDGE ( 'NONE', *, *, #180, .F. ) ;
#199 = FACE_OUTER_BOUND ( 'NONE', #243, .T. ) ;
#200 = ORIENTED_EDGE ( 'NONE', *, *, #54, .T. ) ;
#201 = DIRECTION ( 'NONE',  ( -0.000000000000000000, -0.000000000000000000, 1.000000000000000000 ) ) ;
#202 = FACE_OUTER_BOUND ( 'NONE', #72, .T. ) ;
#203 = ADVANCED_BREP_SHAPE_REPRESENTATION ( '250814 STEP 3-400575-00_6809', ( #290, #262 ), #73 ) ;
#204 = DIRECTION ( 'NONE',  ( 0.000000000000000000, 0.000000000000000000, 1.000000000000000000 ) ) ;
#205 = ADVANCED_FACE ( 'NONE', ( #199, #229 ), #278, .F. ) ;
#206 = AXIS2_PLACEMENT_3D ( 'NONE', #97, #58, #222 ) ;
#207 = DATE_AND_TIME ( #111, #106 ) ;
#208 = VERTEX_POINT ( 'NONE', #311 ) ;
#209 = AXIS2_PLACEMENT_3D ( 'NONE', #155, #256, #231 ) ;
#210 = SECURITY_CLASSIFICATION ( '', '', #220 ) ;
#211 = APPROVAL_DATE_TIME ( #7, #272 ) ;
#212 = EDGE_LOOP ( 'NONE', ( #313 ) ) ;
#213 = APPLICATION_CONTEXT ( 'configuration controlled 3d designs of mechanical parts and assemblies' ) ;
#214 = ADVANCED_FACE ( 'NONE', ( #107, #21 ), #280, .F. ) ;
#215 = PERSON_AND_ORGANIZATION ( #69, #285 ) ;
#216 = DIRECTION ( 'NONE',  ( -0.000000000000000000, -0.000000000000000000, -1.000000000000000000 ) ) ;
#217 = PERSON_AND_ORGANIZATION ( #69, #285 ) ;
#218 = DIRECTION ( 'NONE',  ( -0.000000000000000000, -0.000000000000000000, 1.000000000000000000 ) ) ;
#219 = CLOSED_SHELL ( 'NONE', ( #214, #123, #205, #173, #150, #110, #289, #46, #32, #42, #319, #144 ) ) ;
#220 = SECURITY_CLASSIFICATION_LEVEL ( 'unclassified' ) ;
#221 = ORIENTED_EDGE ( 'NONE', *, *, #187, .F. ) ;
#222 = DIRECTION ( 'NONE',  ( 1.000000000000000000, 0.000000000000000000, -0.000000000000000000 ) ) ;
#223 = EDGE_LOOP ( 'NONE', ( #172 ) ) ;
#224 = FACE_OUTER_BOUND ( 'NONE', #253, .T. ) ;
#225 = ORIENTED_EDGE ( 'NONE', *, *, #160, .F. ) ;
#226 = CARTESIAN_POINT ( 'NONE',  ( 0.000000000000000000, 0.000000000000000000, 4.849999999999997868 ) ) ;
#227 = ORIENTED_EDGE ( 'NONE', *, *, #287, .F. ) ;
#228 = CC_DESIGN_DATE_AND_TIME_ASSIGNMENT ( #95, #61, ( #210 ) ) ;
#229 = FACE_BOUND ( 'NONE', #13, .T. ) ;
#230 = FACE_OUTER_BOUND ( 'NONE', #298, .T. ) ;
#231 = DIRECTION ( 'NONE',  ( 1.000000000000000000, 0.000000000000000000, 0.000000000000000000 ) ) ;
#232 = AXIS2_PLACEMENT_3D ( 'NONE', #80, #178, #283 ) ;
#233 = CC_DESIGN_SECURITY_CLASSIFICATION ( #210, ( #64 ) ) ;
#234 = MECHANICAL_CONTEXT ( 'NONE', #196, 'mechanical' ) ;
#235 = CARTESIAN_POINT ( 'NONE',  ( 5.000000000000000000, 0.000000000000000000, 4.849999999999997868 ) ) ;
#236 = AXIS2_PLACEMENT_3D ( 'NONE', #93, #267, #270 ) ;
#237 = LOCAL_TIME ( 13, 37, 31.00000000000000000, #139 ) ;
#238 = APPROVAL_ROLE ( '' ) ;
#239 = CALENDAR_DATE ( 2025, 14, 8 ) ;
#240 = CYLINDRICAL_SURFACE ( 'NONE', #49, 38.10000000000000142 ) ;
#241 = AXIS2_PLACEMENT_3D ( 'NONE', #276, #39, #40 ) ;
#242 = CIRCLE ( 'NONE', #232, 38.10000000000000142 ) ;
#243 = EDGE_LOOP ( 'NONE', ( #198 ) ) ;
#244 = EDGE_LOOP ( 'NONE', ( #89 ) ) ;
#245 = FACE_OUTER_BOUND ( 'NONE', #5, .T. ) ;
#246 = CIRCLE ( 'NONE', #105, 38.10000000000000142 ) ;
#247 = CARTESIAN_POINT ( 'NONE',  ( 0.000000000000000000, 0.000000000000000000, -4.150000000000003020 ) ) ;
#248 = CARTESIAN_POINT ( 'NONE',  ( 0.000000000000000000, 25.99668878408266082, -6.350000000000000533 ) ) ;
#249 = ORIENTED_EDGE ( 'NONE', *, *, #277, .T. ) ;
#250 = UNCERTAINTY_MEASURE_WITH_UNIT (LENGTH_MEASURE( 1.000000000000000082E-05 ), #3, 'distance_accuracy_value', 'NONE');
#251 = CARTESIAN_POINT ( 'NONE',  ( 0.000000000000000000, 0.000000000000000000, 4.849999999999997868 ) ) ;
#252 = CC_DESIGN_PERSON_AND_ORGANIZATION_ASSIGNMENT ( #263, #84, ( #183 ) ) ;
#253 = EDGE_LOOP ( 'NONE', ( #115 ) ) ;
#254 = CONICAL_SURFACE ( 'NONE', #48, 32.54999999999999716, 1.047197551196596521 ) ;
#255 = FACE_OUTER_BOUND ( 'NONE', #96, .T. ) ;
#256 = DIRECTION ( 'NONE',  ( 0.000000000000000000, 0.000000000000000000, 1.000000000000000000 ) ) ;
#257 = DIRECTION ( 'NONE',  ( 1.000000000000000000, 0.000000000000000000, 0.000000000000000000 ) ) ;
#258 = AXIS2_PLACEMENT_3D ( 'NONE', #41, #20, #129 ) ;
#259 = PERSON_AND_ORGANIZATION_ROLE ( 'creator' ) ;
#260 = CARTESIAN_POINT ( 'NONE',  ( 12.00000000000000000, 0.000000000000000000, -4.150000000000003020 ) ) ;
#261 = AXIS2_PLACEMENT_3D ( 'NONE', #226, #124, #197 ) ;
#262 = AXIS2_PLACEMENT_3D ( 'NONE', #288, #204, #136 ) ;
#263 = PERSON_AND_ORGANIZATION ( #69, #285 ) ;
#264 = APPROVAL_ROLE ( '' ) ;
#265 = EDGE_LOOP ( 'NONE', ( #166 ) ) ;
#266 = PERSON_AND_ORGANIZATION_ROLE ( 'design_supplier' ) ;
#267 = DIRECTION ( 'NONE',  ( -0.000000000000000000, -0.000000000000000000, 1.000000000000000000 ) ) ;
#268 = AXIS2_PLACEMENT_3D ( 'NONE', #142, #315, #63 ) ;
#269 = DATE_AND_TIME ( #170, #27 ) ;
#270 = DIRECTION ( 'NONE',  ( 1.000000000000000000, 0.000000000000000000, 0.000000000000000000 ) ) ;
#271 = FACE_OUTER_BOUND ( 'NONE', #320, .T. ) ;
#272 = APPROVAL ( #68, 'UNSPECIFIED' ) ;
#273 = PLANE ( 'NONE',  #206 ) ;
#274 = CIRCLE ( 'NONE', #209, 5.000000000000000000 ) ;
#275 = APPROVAL_PERSON_ORGANIZATION ( #217, #272, #264 ) ;
#276 = CARTESIAN_POINT ( 'NONE',  ( 0.000000000000000000, 0.000000000000000000, -6.350000000000003197 ) ) ;
#277 = EDGE_CURVE ( 'NONE', #51, #51, #242, .T. ) ;
#278 = PLANE ( 'NONE',  #305 ) ;
#279 = EDGE_LOOP ( 'NONE', ( #114 ) ) ;
#280 = CYLINDRICAL_SURFACE ( 'NONE', #88, 15.00000000000000000 ) ;
#281 = DIRECTION ( 'NONE',  ( 1.000000000000000000, 0.000000000000000000, 0.000000000000000000 ) ) ;
#282 = EDGE_CURVE ( 'NONE', #24, #24, #274, .T. ) ;
#283 = DIRECTION ( 'NONE',  ( 1.000000000000000000, 0.000000000000000000, 0.000000000000000000 ) ) ;
#284 = TOROIDAL_SURFACE ( 'NONE', #62, 33.34999999999999432, 1.600000000000000533 ) ;
#285 = ORGANIZATION ( 'UNSPECIFIED', 'UNSPECIFIED', '' ) ;
#286 = APPLICATION_PROTOCOL_DEFINITION ( 'international standard', 'config_control_design', 1994, #213 ) ;
#287 = EDGE_CURVE ( 'NONE', #159, #159, #310, .T. ) ;
#288 = CARTESIAN_POINT ( 'NONE',  ( 0.000000000000000000, 0.000000000000000000, 0.000000000000000000 ) ) ;
#289 = ADVANCED_FACE ( 'NONE', ( #230, #326 ), #254, .T. ) ;
#290 = MANIFOLD_SOLID_BREP ( 'Boss-Extrude1', #219 ) ;
#291 = FACE_BOUND ( 'NONE', #121, .T. ) ;
#292 = PERSON_AND_ORGANIZATION ( #69, #285 ) ;
#293 = ORIENTED_EDGE ( 'NONE', *, *, #59, .T. ) ;
#294 = CIRCLE ( 'NONE', #17, 12.00000000000000000 ) ;
#295 = CARTESIAN_POINT ( 'NONE',  ( 0.000000000000000000, 0.000000000000000000, 6.349999999999998757 ) ) ;
#296 = PRODUCT_RELATED_PRODUCT_CATEGORY ( 'detail', '', ( #183 ) ) ;
#297 = FACE_OUTER_BOUND ( 'NONE', #279, .T. ) ;
#298 = EDGE_LOOP ( 'NONE', ( #225 ) ) ;
#299 = CARTESIAN_POINT ( 'NONE',  ( 0.000000000000000000, 0.000000000000000000, 1.385640646055101399 ) ) ;
#300 = LOCAL_TIME ( 13, 37, 31.00000000000000000, #28 ) ;
#301 = DIRECTION ( 'NONE',  ( 1.000000000000000000, 0.000000000000000000, 0.000000000000000000 ) ) ;
#302 = ORIENTED_EDGE ( 'NONE', *, *, #277, .F. ) ;
#303 = DIRECTION ( 'NONE',  ( 1.000000000000000000, 0.000000000000000000, 0.000000000000000000 ) ) ;
#304 = FACE_OUTER_BOUND ( 'NONE', #314, .T. ) ;
#305 = AXIS2_PLACEMENT_3D ( 'NONE', #248, #77, #177 ) ;
#306 = CARTESIAN_POINT ( 'NONE',  ( 0.000000000000000000, 0.000000000000000000, -4.150000000000002132 ) ) ;
#307 = APPROVAL_DATE_TIME ( #52, #86 ) ;
#308 = VERTEX_POINT ( 'NONE', #55 ) ;
#309 = EDGE_CURVE ( 'NONE', #208, #208, #6, .T. ) ;
#310 = CIRCLE ( 'NONE', #258, 15.00000000000000000 ) ;
#311 = CARTESIAN_POINT ( 'NONE',  ( 12.00000000000000000, 0.000000000000000000, -6.350000000000003197 ) ) ;
#312 = CC_DESIGN_PERSON_AND_ORGANIZATION_ASSIGNMENT ( #292, #164, ( #64 ) ) ;
#313 = ORIENTED_EDGE ( 'NONE', *, *, #287, .T. ) ;
#314 = EDGE_LOOP ( 'NONE', ( #169 ) ) ;
#315 = DIRECTION ( 'NONE',  ( -0.000000000000000000, -0.000000000000000000, 1.000000000000000000 ) ) ;
#316 = APPROVAL_STATUS ( 'not_yet_approved' ) ;
#317 = CYLINDRICAL_SURFACE ( 'NONE', #141, 12.00000000000000000 ) ;
#318 = DIRECTION ( 'NONE',  ( -0.000000000000000000, -0.000000000000000000, 1.000000000000000000 ) ) ;
#319 = ADVANCED_FACE ( 'NONE', ( #122, #321 ), #99, .T. ) ;
#320 = EDGE_LOOP ( 'NONE', ( #98 ) ) ;
#321 = FACE_BOUND ( 'NONE', #223, .T. ) ;
#322 = EDGE_LOOP ( 'NONE', ( #15 ) ) ;
#323 = FACE_OUTER_BOUND ( 'NONE', #37, .T. ) ;
#324 = EDGE_LOOP ( 'NONE', ( #126 ) ) ;
#325 = CYLINDRICAL_SURFACE ( 'NONE', #261, 5.000000000000000000 ) ;
#326 = FACE_BOUND ( 'NONE', #149, .T. ) ;
#327 = AXIS2_PLACEMENT_3D ( 'NONE', #44, #127, #303 ) ;
#328 = DIRECTION ( 'NONE',  ( 0.000000000000000000, 0.000000000000000000, 1.000000000000000000 ) ) ;
#329 = VERTEX_POINT ( 'NONE', #162 ) ;
ENDSEC;
END-ISO-10303-21;
